Vim

(/) Slide Up  (\) Slide Down  (h) Hammer On  (p) Pull Off  (b) Bend (r) Release (v) Vibrato
E|----------------------------------------------------------------------
B|----------------------------------------------------------------------
G|--------11--11--11--11--11--11--11--------11--11--11--11--11--11--11--
D|--------11--11--11--11--11--11--11--------11--11--11--11--11--11--11--
A|--9--9--9---9---9---9---9---9---9---9--9--9---9---9---9---9---9---9---
E|--9--9--9---9---9---9---9---9---9---9--9--9---9---9---9---9---9---9---



E|----------------------------------------------------------------------
B|----------------------------------------------------------------------
G|--------11--11--11--11--11--11--11--------11--11--11--11--11--11--11--
D|--------11--11--11--11--11--11--11--------11--11--11--11--11--11--11--
A|--7--7--7---7---7---7---7---7---7---7--7--7---7---7---7---7---7---7---
E|--7--7--7---7---7---7---7---7---7---7--7--7---7---7---7---7---7---7---



E|--------------------------------------------------------------------------------------------------
B|--------------------------------------------------------------------------------------------------
G|--------------------------------------------------------------------------------------------------
D|--9--9--9--9--9--9--9--9--9--9--9--9--9--9--9--9--9--9--9--9--9--9--9--9--9--9--9--9--9--9--9--9--
A|--------------------------------------------------------------------------------------------------
E|--------------------------------------------------------------------------------------------------



E|-----------------------------------------------------------------------------------------------
B|-----------------------------------------------------------------------------------------------
G|-----------------------------------------------------------------------------------------------
D|--7--7--7--7--7--7--7--7--7--7--7--7--7--7--7--7--7--7--7--7--7--7--7--7--7--7--7--7--7--7-----
A|-----------------------------------------------------------------------------------------------
E|-----------------------------------------------------------------------------------------------



E|---------------------------------------------------------
B|---------------------------------------------------------
G|---------------------------------------------------------
D|---------------------------------------------------------
A|--2\11--11--11--11/7--7--7--7\11--11--11--11/7--7--7--7--
E|----0---0---0---0--0--0--0--0-0---0---0---0--0--0--0--0--



E|----------------------------------------------------------------------------------------------
B|----------------------------------------------------------------------------------------------
G|----------------------------------------------------------------------------------------------
D|----------------------------------------------------------------------------------------------
A|--7\14--14--14--14--14--14--14--14--14--14--14--14--14--14--14--14--14--14--14--14--14--14\7--
E|----0---0---0---0---0---0---0---0---0---0---0---0---0---0---0---0---0---0---0---0---0---0--0--



E|-------------------------------------------------------
B|-------------------------------------------------------
G|-------------------------------------------------------
D|--11--9--7--9--7--4--7--4--2--4--2--0--4p2p0--0--2--0--
A|-------------------------------------------------------
E|-------------------------------------------------------



E|------------------------------------------------------
B|------------------------------------------------------
G|------------------------------------------------------
D|--11--9--7--9--7--4--7--4--2--4--2--7--7--7--7--7--7--
A|------------------------------------0--0--0--0--0--0--
E|------------------------------------------------------



E|-----------------------------------------------------
B|-----------------------------------------------------
G|--2h4--4--4--4--4--2--2--2--2h4--4--4--4--4/6--6--6--
D|--0----0--0--0--0--0--0--0--0----0--0--0--0-0--0--0--
A|-----------------------------------------------------
E|-----------------------------------------------------



E|--
B|--
G|--
D|--
A|--
E|--
http://www.guitartabcreator.com
Guitar Tab Creator is intended to store guitar tab created through the tool. It currently does not support in-line text editing. Any text you place in here will be lost. If you need to comment on your tab, please use the "Tab Notes" section located below.