5

(/) Slide Up  (\) Slide Down  (h) Hammer On  (p) Pull Off  (b) Bend (r) Release (v) Vibrato


E|-----------------------------------------------------------------
B|-----------------------------------------------------------------
G|--9--6-----------9--6-----------9--6-----------9--6--------------
D|--------9--6-----------9--6-----------9--6-----------9--6--------
A|--------------7--------------7--------------7--------------7-----
E|-----------------------------------------------------------------



E|--------------------------------------------------------------
B|--------------------------------------------------------------
G|--9--6-----------9--6-----------9--6-----------9--6-----------
D|--------9--6-----------9--6-----------9--6-----------9--6-----
A|--------------7--------------7--------------7--------------7--
E|--------------------------------------------------------------



E|--------------------------------------------------------------
B|--------------------------------------------------------------
G|--9--6-----------9--6-----------9--6-----------9--6-----------
D|--------9--6-----------9--6-----------9--6-----------9--6-----
A|--------------9--------------9--------------9--------------9--
E|--------------------------------------------------------------



E|--------------------------------------------------------------
B|--------------------------------------------------------------
G|--9--6-----------9--6-----------9--6-----------9--6-----------
D|--------9--6-----------9--6-----------9--6-----------9--6-----
A|--------------9--------------9--------------9--------------9--
E|--------------------------------------------------------------



E|----------------------------------------------
B|----------------------------------------------
G|----------------------------------------------
D|--7h9--------7h9--------7h9--------7h9--------
A|-------9h11-------9h11-------9h11-------9h11--
E|----------------------------------------------



E|--------------------------------------------------
B|--------------------------------------------------
G|--------------------------------------------------
D|--11p9--------11p9--------11p9--------11p9--------
A|--------9h11--------9h11--------9h11--------9h11--
E|--------------------------------------------------



E|--------------------------------------------------------------------------------------
B|--------------------------------------------------------------------------------------
G|--------------------------------------------------------------------------------------
D|-----------9-----9--------------9-----9--------------9-----9--------------9-----9-----
A|--7--7--7-----7-----7--7--7--7-----7-----7--7--7--7-----7-----7--7--7--7-----7-----7--
E|--------------------------------------------------------------------------------------



E|--------------------------------------------------------------------------------------
B|--------------------------------------------------------------------------------------
G|--------------------------------------------------------------------------------------
D|-----------9-----9--------------9-----9--------------9-----9--------------9-----9-----
A|--------------------------------------------------------------------------------------
E|--7--7--7-----7-----7--7--7--7-----7-----7--7--7--7-----7-----7--7--7--7-----7-----7--



E|--------------------------------------------------------------
B|--------------------------------------------------------------
G|--------------------------------------------------------------
D|--2--2--2--2--2--2--2--2--2--2--2--2--2--2--2--2--2--2--2--2--
A|--2--2--2--2--2--2--2--2--2--2--2--2--2--2--2--2--2--2--2--2--
E|--2--2--2--2--2--2--2--2--2--2--2--2--2--2--2--2--2--2--2--2--



E|--------------------------------------------------------------
B|--------------------------------------------------------------
G|--------------------------------------------------------------
D|--7--7--7--7--7--7--7--7--7--7--7--7--7--7--7--7--7--7--7--7--
A|--7--7--7--7--7--7--7--7--7--7--7--7--7--7--7--7--7--7--7--7--
E|--7--7--7--7--7--7--7--7--7--7--7--7--7--7--7--7--7--7--7--7--
http://www.guitartabcreator.com
Guitar Tab Creator is intended to store guitar tab created through the tool. It currently does not support in-line text editing. Any text you place in here will be lost. If you need to comment on your tab, please use the "Tab Notes" section located below.