Love is in Bloom

(/) Slide Up  (\) Slide Down  (h) Hammer On  (p) Pull Off  (b) Bend (r) Release (v) Vibrato


E|---------------------------------------------------------------------------------------------------
B|--8/11--9-------------------11--9---------------11--9-------------------11--9------11/12v--14--9v--
G|-----------10--11v--10h11v---------10v--10h11v---------10--11v--10h11v---------10------------------
D|---------------------------------------------------------------------------------------------------
A|---------------------------------------------------------------------------------------------------
E|---------------------------------------------------------------------------------------------------



E|----------------------------------------------------------------------------------------------
B|--12v--14v--9v----------11--11--11v------9----------------------9h11p9h11p9--12v--/14v--/19v--
G|----------------11--11---------------11-----11--10h11p10h11p10--------------------------------
D|----------------------------------------------------------------------------------------------
A|----------------------------------------------------------------------------------------------
E|----------------------------------------------------------------------------------------------



E|------------------------------
B|--11--11--11v------9----------
G|---------------11-----11--10--
D|------------------------------
A|------------------------------
E|------------------------------
http://www.guitartabcreator.com
Guitar Tab Creator is intended to store guitar tab created through the tool. It currently does not support in-line text editing. Any text you place in here will be lost. If you need to comment on your tab, please use the "Tab Notes" section located below.