Blues Lick Track 1

(/) Slide Up  (\) Slide Down  (h) Hammer On  (p) Pull Off  (b) Bend (r) Release (v) Vibrato


E|-----------------------------------------------------------------------------------------8--
B|--------------------------------------------------------------------------------------------
G|--5\7--5-----6--5\7--5----------5\7--5-----5\6--5\7--5-----7\9--5\7--5--------5\7--5--------
D|----------7--5----------7--5\7----------7---------------7---------------7--5----------7-----
A|-------------4------------------------------------------------------------------------------
E|-------------5------------------------------------------------------------------------------



E|-------------------------------------------------------------------------------------------
B|---------------------------------------------------------8\10---------------------------8--
G|--5\7--5-----5--5\7--5-----5\7--5\7--5--------5\7--5-----------5\7--5-----5--5\7--5--------
D|----------7--4----------7---------------7--4----------7----------------7-------------7-----
A|-------------5-----------------------------------------------------------------------------
E|-------------------------------------------------------------------------------------------



E|------------------------------------------------------------------------------------------
B|---------------------------------------------------------------------------------------8--
G|--5\7--5-----7--5\7--5--------5\7--5--------5\7--5----------5\7--5-----5\7--5\7--5--------
D|----------7--6----------7-------------7--6----------7--7\9----------7---------------7-----
A|-------------7-------------7--------------------------------------------------------------
E|------------------------------------------------------------------------------------------
http://www.guitartabcreator.com
Guitar Tab Creator is intended to store guitar tab created through the tool. It currently does not support in-line text editing. Any text you place in here will be lost. If you need to comment on your tab, please use the "Tab Notes" section located below.