Semitone Clusters Arpeggiated

(/) Slide Up  (\) Slide Down  (h) Hammer On  (p) Pull Off  (b) Bend (r) Release (v) Vibrato
E|-------------------------------------------------------------------------------------------
B|-------------------------------------------------------------------------------------------
G|---------------------------------------------------------------0-------------0-----0-------
D|--------0-------------0-----0-------0-----------------------4-----4-------------6----------
A|-----4-----4-------------6-----------------7--7----------8-----------8----9-----------9----
E|--8-----------8----9-----------9-------11--------11----------------------------------------



E|------------------------------------------------------------------------------------------------------
B|------------------------------------------------------------------------------------------------------
G|-------------------------------------------------------------0---------------------------0------------
D|--------0-------------0-----0-------0-------------0-------4----------------0-----0--------------7-----
A|-----4-----4-------------6-----------------7-----------8--------4-------------6-------------11--------
E|--8-----------8----9-----------9-------11-----11-------------------8----9-----------9-----------------



E|---------------------------------------------------------------------------------------------
B|---------------------------------------------------------------------------------------------
G|-------------------------------------------------------------------0-------------0-----0-----
D|--------0-------------0-----0-------0-------------0-------------4-----4----------------------
A|-----4-----4-------------6-----------------7-----------------8-----------8----9-----6-----9--
E|--8-----------8----9-----------9-------11-----11---------------------------------------------



E|-------------------------------------------------------------------0----------0-----------0--
B|--------0---------------0-----0---------0-------------0---------4-----4-------------6--------
G|-----3-----3---------------5-------------------6-------------7-----------7-------8-----8-----
D|--7-----------7------8-----------8---------10-----10-----------------------------------------
A|---------------------------------------------------------------------------------------------
E|---------------------------------------------------------------------------------------------
http://www.guitartabcreator.com
Guitar Tab Creator is intended to store guitar tab created through the tool. It currently does not support in-line text editing. Any text you place in here will be lost. If you need to comment on your tab, please use the "Tab Notes" section located below.