Dissonant Chords

(/) Slide Up  (\) Slide Down  (h) Hammer On  (p) Pull Off  (b) Bend (r) Release (v) Vibrato
E|----0---------0----3---------0----0----0----0----5----0----0----0----0----6----
B|----4---------6----0---------6----4----7----6----0----6----4----4----6----0----
G|----0---------0----3---------0----0----0----0----5----8----8----7----8----3----
D|----4---------4----4---------6----6----6----6----6----6----6----6----9----7----
A|----0---------0----0---------0----0----0----0----0----0----0----0----0----0----
E|----4---------4----4---------6----6----6----6----6----6----6----6----6----6----



E|----1----1----1----6----8----1----0-----0-----8-----0-----
B|----0----2----0----0----0----0----11----6-----0-----6-----
G|----3----0----3----5----5----3----0-----8-----10----8-----
D|----1----4----0----0----0----1----11----0-----11----0-----
A|----1----1----4----4----4----4----0-----7-----0-----9-----
E|----0----0----0----0----0----0----11----11----11----11----



E|--0--0--0-----------------8--6--6---6---
B|--6--7--7-----------------7--9--10--10--
G|--0--0--0-----------------0--0--0---0---
D|--4--4--6-----------------6--9--7---7---
A|--8--8--8-----------------8--8--8---9---
E|--0--0--0-----------------0--0--0---0---



E|----4----5----0----6--------------0-----0-----8----6----6----8----6----6----8----8----0----0----
B|----0----0----6----0--------------9-----11----0----0----0----0----0----0----0----0----4----4----
G|----6----6----8----5--------------0-----0-----8----8----6----8----6----8----6----6----7----7----
D|----0----0----0----0--------------7-----7-----0----0----0----0----0----0----0----0----6----5----
A|----4----4----4----4--------------11----11----6----6----6----8----8----8----8----6----6----6----
E|----8----8----8----8--------------8-----8-----0----0----0----0----0----0----0----0----0----0----
http://www.guitartabcreator.com
Guitar Tab Creator is intended to store guitar tab created through the tool. It currently does not support in-line text editing. Any text you place in here will be lost. If you need to comment on your tab, please use the "Tab Notes" section located below.