Adjacent Semitone Clusters

(/) Slide Up  (\) Slide Down  (h) Hammer On  (p) Pull Off  (b) Bend (r) Release (v) Vibrato
E|--0--0--------0------------------------------------------------
B|--4--6--------7------------0--0--0-----------------------------
G|--7--8--------10-----------3--5--6---0--0--0-------------------
D|---------------------------7--8--10--4--6--7---------0--0--0---
A|-------------------------------------8--9--11--------4--6--7---
E|-----------------------------------------------------8--9--11--



E|-------------------
B|-------------------
G|-------------------
D|----0----0---------
A|----4----6---------
E|----8----9---------



E|-------------------------
B|-------------------------
G|--------------------0----
D|----0----0----0-----4----
A|----4----6----7-----8----
E|----8----9----11----8----



E|------------------------------------
B|------------------------------------
G|--------------------0----0----0-----
D|----0----0----0-----0----6----7-----
A|----4----6----7-----4----9----11----
E|----8----9----11--------------------



E|----------------------------------------------------0----0----------
B|------------------------------------0----0----0-----4----6----7-----
G|--------------------0----0----0-----3----5----6-----7----8----10----
D|----0----0----0-----4----6----7-----7----8----10--------------------
A|----4----6----7-----8----9----11------------------------------------
E|----8----9----11----------------------------------------------------
http://www.guitartabcreator.com
Guitar Tab Creator is intended to store guitar tab created through the tool. It currently does not support in-line text editing. Any text you place in here will be lost. If you need to comment on your tab, please use the "Tab Notes" section located below.