Untitles

(/) Slide Up  (\) Slide Down  (h) Hammer On  (p) Pull Off  (b) Bend (r) Release (v) Vibrato


E|--2--2--2--2--2--2--2--2--2--2--
B|--0--0--0--0--0--0--0--0--0--0--
G|--2--2--2--2--2--2--2--2--2--2--
D|--0--0--0--0--0--0--0--0--0--0--
A|--------------------------------
E|--2--2--2--2--2--2--2--2--2--2--



E|--7--7--7--7--5--2--2--2--2--2--2--2--2--2--
B|--0--0--0--0--0--0--0--0--0--0--0--0--0--0--
G|--7--7--7--7--5--2--2--2--2--2--2--2--2--2--
D|--0--0--0--0--0--0--0--0--0--0--0--0--0--0--
A|--------------------------------------------
E|--7--7--7--7--5--2--2--2--2--2--2--2--2--2--
http://www.guitartabcreator.com
Guitar Tab Creator is intended to store guitar tab created through the tool. It currently does not support in-line text editing. Any text you place in here will be lost. If you need to comment on your tab, please use the "Tab Notes" section located below.