Secular Haze

(/) Slide Up  (\) Slide Down  (h) Hammer On  (p) Pull Off  (b) Bend (r) Release (v) Vibrato
E|-------------------------------------------------------------------------------
B|-------------------------------------------------------------------------------
G|----------------------------------------5--8--8--8--7--7--7--5--5--5--3--3-----
D|-----------6h4--4--4--5--5--5--5--6--6-----------------------------------------
A|--3--3--3----------------------------------------------------------------------
E|-------------------------------------------------------------------------------



E|-------------------------------------------------------------------------------
B|-------------------------------------------10--10--10--9--9--9--6--6--6--5--5--
G|-------------------------------------------------------------------------------
D|-------------------------------------------7---7---7---6--6--6--3--3--3--2--2--
A|--5--5--5-------------------------5--5--5--------------------------------------
E|-----------6h4--4--4--5--5--5--5-----------------------------------------------



E|-------------------------------------------------------------------------------------
B|-------------------------------------------13--13--13--11--11--11--10--10--10--8--8--
G|-------------------------------------------------------------------------------------
D|-------------------------------------------10--10--10--8---8---8---7---7---7---5--5--
A|--5--5--5-------------------------5--5--5--------------------------------------------
E|-----------6h4--4--4--5--5--5--5-----------------------------------------------------



E|------------------------------------------------------------------------------
B|------------------------------------------------------------------------------
G|------------------------------------------------------------------------------
D|------------------------------------------------------------------------------
A|-------------------------------3--2--1-------------------------------3--2--1--
E|--0--0--0--7h8h7h5h6--0--0--0-----------0--0--0--7h8h7h5h6--0--0--0-----------



E|-----------12--------------------------------12-----------------------
B|-----------16-----------13--12--11-----------16-----------13--12--11--
G|----------------------------------------------------------------------
D|----------------------------------------------------------------------
A|----------------------------------------------------------------------
E|--0--0--0------0--0--0--------------0--0--0------0--0--0--------------



E|--------------------------------------------
B|--------------------------------------------
G|--------------------------------------------
D|-----------------7--7-----------------7--7--
A|--7-----------7--------7-----------7--------
E|-----8--7--5--------------8--7--5-----------
http://www.guitartabcreator.com
Guitar Tab Creator is intended to store guitar tab created through the tool. It currently does not support in-line text editing. Any text you place in here will be lost. If you need to comment on your tab, please use the "Tab Notes" section located below.