One

(/) Slide Up  (\) Slide Down  (h) Hammer On  (p) Pull Off  (b) Bend (r) Release (v) Vibrato


E|------0------------------0---------------------------------------------------------
B|-------------10-----------------10------10--10--10----------10--10--10-------------
G|-----------------11-----------------11--11--11--11----------11--11--11-------------
D|--12-----12----------12-----12----------12--12--12--12--12--12--12--12--12--12-----
A|-----------------------------------------------------------------------------------
E|-----------------------------------------------------------------------------------



E|------------------------------------------------------------------------
B|--7--7--7--------7--7--7--------10--10--10----------10--10--10----------
G|--8--8--8--------8--8--8--------11--11--11----------11--11--11----------
D|--9--9--9--9--9--9--9--9--9--9--12--12--12--12--12--12--12--12--12--12--
A|------------------------------------------------------------------------
E|------------------------------------------------------------------------



E|-----------------------------------7--
B|--7--7--7--------7--7--7--7--4--7--0--
G|--8--8--8--------8--8--8--------------
D|--9--9--9--9--9--9--9--9--------------
A|--------------------------------------
E|--------------------------------------



E|-------------------------------------------------------------------------------
B|-----------------------------------------------------------10--10--10----------
G|-----------------------------------------------------------11--11--11----------
D|--------------------------------12--12--12--9--7--5--5--5--12--12--12--12--12--
A|--7--7--7--------5--5--5--------10--10--10--7--5--3--3--3----------------------
E|--5--5--5--5--5--3--3--3--3--3-------------------------------------------------
http://www.guitartabcreator.com
Guitar Tab Creator is intended to store guitar tab created through the tool. It currently does not support in-line text editing. Any text you place in here will be lost. If you need to comment on your tab, please use the "Tab Notes" section located below.