Deadlines

(/) Slide Up  (\) Slide Down  (h) Hammer On  (p) Pull Off  (b) Bend (r) Release (v) Vibrato

(W|WW) Whole (H|HH) Half (Q|QQ) Quarter (E|EE) 8th (S|SS) 16th (T|TT) 32nd (X|XX) 64th
t: Q Q Q Q Q Q Q Q Q undefined Q undefined undefined undefined Q Q undefined Q Q undefined Q Q Q Q Q Q Q Q Q Q Q Q Q
E|------------------------------------------------------2--------------------------------------
B|-----------------------3--5---------------------------3--------------------------------------
G|------------------------------------------------------2--------------------------------------
D|----------------------------------------2--------2----0--------------------------------------
A|-----------------5--2-------------------2--------2----------------5--0--2-----------5--0--2--
E|--3--5--5--0--3----------------7--------0--------0-------0--5--3-----------0--5--3-----------


t: QQ QQ QQ QQ QQ QQ QQ QQ QQ QQ QQ
E|--12--14--15----------------------------------
B|--------------12--15--------------------------
G|----------------------12--14------------------
D|------------------------------14--------------
A|--------------------------------------12------
E|----------------------------------12------15--
http://www.guitartabcreator.com
Guitar Tab Creator is intended to store guitar tab created through the tool. It currently does not support in-line text editing. Any text you place in here will be lost. If you need to comment on your tab, please use the "Tab Notes" section located below.