Metal

(/) Slide Up  (\) Slide Down  (h) Hammer On  (p) Pull Off  (b) Bend (r) Release (v) Vibrato

E|-----------------------------------------------------
B|-----------------------------------------------------
G|-----------------------------------------------------
D|-----------------------------------------------------
A|-----7--9-----9--10-----10-----9--7-----5--7--9--10--
E|--0--------0---------0------0--------0---------------



E|--------------------------------------------------------
B|--------------------------------------------------------
G|--------------------------------------------------------
D|-----------------------------------------------7--9-----
A|-----7--9-----9--10-----12-----10--9-----7--9-----------
E|--0--------0---------0------0---------0-----------------



E|------------------------------------------------------------
B|------------------------------------------------------------
G|------------------------------------------------------------
D|-----12--14-----16--14-----17-----17--16-----12--14--16-----
A|--0----------0----------0------0----------0-----------------
E|------------------------------------------------------------



E|---------------------------------------------------------------
B|---------------------------------------------------------------
G|---------------------------------------------------------17----
D|-----12--14-----14--16-----17-----19--19-----17--16--17--------
A|--0----------0----------0------0----------0--------------------
E|---------------------------------------------------------------



E|--
B|--
G|--
D|--
A|--
E|--



E|------------------------------------------------------------
B|------------------------------------------------------------
G|------------------------------------------------------------
D|------------------------------------------------------------
A|-----12--12-----12-----12--12-----12--12-----12-----12--12--
E|--0----------0------0----------0----------0------0----------



E|------------------------------------------------------------
B|------------------------------------------------------------
G|------------------------------------------------------------
D|------------------------------------------------------------
A|-----11--11-----11-----11--11-----11--11-----11-----11--11--
E|--0----------0------0----------0----------0------0----------
http://www.guitartabcreator.com
Guitar Tab Creator is intended to store guitar tab created through the tool. It currently does not support in-line text editing. Any text you place in here will be lost. If you need to comment on your tab, please use the "Tab Notes" section located below.