King's gloom

(/) Slide Up  (\) Slide Down  (h) Hammer On  (p) Pull Off  (b) Bend (r) Release (v) Vibrato

Stave 1:

E|--------------0--------------
B|-----------1-----3--1--------
G|--------2--------------2-----
D|-----2--------------------2--
A|--0--------------------------
E|-----------------------------

Stave 2:

E|--------------0--------
B|-----------0-----------
G|--------1--------------
D|-----2-----------------
A|--3--------------------
E|-----------------------

Stave 3:

E|-----------0--------------0--------------0--------------0-------------
B|--0--------------------3--------------5--------------3----------------
G|-----1--------------5--------------7--------------5-------------------
D|--------1--------5--------------7--------------5----------------------
A|--------------0--------------0--------------0-------------------------
E|----------------------------------------------------------------------

http://www.guitartabcreator.com
Guitar Tab Creator is intended to store guitar tab created through the tool. It currently does not support in-line text editing. Any text you place in here will be lost. If you need to comment on your tab, please use the "Tab Notes" section located below.