Canada

(/) Slide Up  (\) Slide Down  (h) Hammer On  (p) Pull Off  (b) Bend (r) Release (v) Vibrato

Stave 1:

E|--------------0-----------------0-----
B|-----------0-----0-----------0-----0--
G|--------2-----------------2-----------
D|-----2-----------------2--------------
A|--0-----------------0-----------------
E|--------------------------------------

Stave 2:

E|-----------3--------------------3-----
B|--------------0--------------0-----0--
G|--------5--------5--------5-----------
D|-----5-----------------5--------------
A|--0-----------------0-----------------
E|--------------------------------------

Stave 3:

E|-----------5-----------------5--------
B|--------------0-----------------0-----
G|--------7--------7--------7--------7--
D|-----7-----------------7--------------
A|--0-----------------0-----------------
E|--------------------------------------

Stave 4:

E|--------------3-----------------3-----
B|-----------0-----0-----------0-----0--
G|--------5-----------------5-----------
D|-----5-----------------5--------------
A|--0-----------------0-----------------
E|--------------------------------------

Stave 5:

E|--0--------------
B|-----0-----------
G|--------2--------
D|-----------2-----
A|--------------0--
E|-----------------

Stave 6:

E|--------------0--------------0-----------------0--
B|-----------0--------------0-----------------0-----
G|--------2--------------2-----------------1--------
D|-----2--------------2-----------------2-----------
A|--0--------------0-----------------2--------------
E|--------------------------------0-----------------

Stave 7:

E|--------------0--------------0-----------------0--
B|-----------2--------------2-----------------0-----
G|--------2--------------2-----------------1--------
D|-----2--------------2-----------------2-----------
A|--0--------------0-----------------2--------------
E|--------------------------------0-----------------

Stave 8:

E|--3-----------3--------------------2--
B|-----3-----------3--------------1-----
G|--------2-----------2--------2--------
D|-----------0-----------0--0-----------
A|--------------------------------------
E|--------------------------------------

Stave 9:

E|--
B|--
G|--
D|--
A|--
E|--

http://www.guitartabcreator.com
Guitar Tab Creator is intended to store guitar tab created through the tool. It currently does not support in-line text editing. Any text you place in here will be lost. If you need to comment on your tab, please use the "Tab Notes" section located below.