Passagens da nova música gravada

(/) Slide Up  (\) Slide Down  (h) Hammer On  (p) Pull Off  (b) Bend (r) Release (v) Vibrato
Primeira passagem(guitarra e baixo)
E|------------------------------------------------
B|------------------------------------------------
G|------------------------------------------------
D|--------------------------------------------10--
A|--3--5--6--6--8--10--9--10--12--10--12--13------
E|------------------------------------------------


Segunda passagem(guitarra e baixo)
E|-----------------------------------------
B|-----------------------------------------
G|-------------------------------------10--
D|------------------------------9--12------
A|--3--5--6--5--6--8--6--8--10-------------
E|-----------------------------------------

Terceira passagem(guitarra)

E|--------------------------------------------------------------------------
B|--------------------------------------------------------------------------
G|----------------------------------------------------------10------10--12--
D|-------------------------------------9------9--12--9--12------12----------
A|--3--5--6--5--6--8--6--8--10--8--10-----10--------------------------------
E|--------------------------------------------------------------------------


Terceira passagem(baixo)
E|---------------------------------
B|---------------------------------
G|-------------------------10--12--
D|------------------9--12----------
A|--3--5--6--8--10-----------------
E|---------------------------------
http://www.guitartabcreator.com
Guitar Tab Creator is intended to store guitar tab created through the tool. It currently does not support in-line text editing. Any text you place in here will be lost. If you need to comment on your tab, please use the "Tab Notes" section located below.