Exercise in G (Part 1)

(/) Slide Up  (\) Slide Down  (h) Hammer On  (p) Pull Off  (b) Bend (r) Release (v) Vibrato


E|--------------------------------------------------------------------------
B|--------------------------------------------------------------------------
G|--------------------------------------------------------------------------
D|-----------------------------------------------4--------4--5-----4--5--7--
A|-----------3--------3--5-----3--5--7--3--5--7-----5--7--------7-----------
E|--3--5--7-----5--7--------7-----------------------------------------------



E|--------------------------------------------------------------------------
B|-----------------------------------------------5--------5--7-----5--7--8--
G|-----------4--------4--5-----4--5--7--4--5--7-----5--7--------7-----------
D|--4--5--7-----5--7--------7-----------------------------------------------
A|--------------------------------------------------------------------------
E|--------------------------------------------------------------------------



E|-----------5--------5--7-----5--7--8--10--7--8------7------------------------
B|--5--7--8-----7--8--------8---------------------10-----8--10--7--8-----7-----
G|--------------------------------------------------------------------9-----7--
D|-----------------------------------------------------------------------------
A|-----------------------------------------------------------------------------
E|-----------------------------------------------------------------------------



E|------------------------------------------------------------
B|------------------------------------------------------------
G|--9------7--------------------------------------------------
D|-----10-----9--10--7--9------7------------------------------
A|-------------------------10-----9--10--7--9----------9--10--
E|---------------------------------------------10--12---------
http://www.guitartabcreator.com
Guitar Tab Creator is intended to store guitar tab created through the tool. It currently does not support in-line text editing. Any text you place in here will be lost. If you need to comment on your tab, please use the "Tab Notes" section located below.