Toy soldiers

(/) Slide Up  (\) Slide Down  (h) Hammer On  (p) Pull Off  (b) Bend (r) Release (v) Vibrato


E|------------------------------------------------------------------
B|------------------------------------------------------------------
G|------------------------------------------------------------------
D|-10-10-10-10-10-12-12-12-10-10-10-10-12-2-2-2-2-0-0-2-2-2-2-0-0-0-
A|-10-10-10-10-10-12-12-12-10-10-10-10-12-2-2-2-2-0-0-2-2-2-2-0-0-0-
E|-10-10-10-10-10-12-12-12-10-10-10-10-12-2-2-2-2-0-0-2-2-2-2-0-0-0-



E|----------------------------------------------------------------------------
B|----------------------------------------------------------------------------
G|----------------------------------------------------------------------------
D|-2-2-2-2-0-0-0-5-5-5-5-5-2-2-2-2-0-0-0--------------------------------------
A|-2-2-2-2-0-0-0-3-3-3-3-3-2-2-2-2-0-0-0--------------------------------------
E|-2-2-2-2-0-0-0-----------2-2-2-2-0-0-0-7-7-9-9-9-10-10-10-10-10-10-10-10-10-



E|----------------------------------------------------------------------------------------------
B|----------------------------------------------------------------------------------------------
G|----------------------------------------------------------------------------------------------
D|----------------------------------------------------------------------------------------------
A|----------------------------------------------------------------------------------------------
E|-5-5-5-5-5-12-12-12-12-12-14-14-14-14-14-10-10-10-10-10-7-7-7-7-7-7-7-10-10-10-10-10-10-10-10-



E|-----------------------------------------------------------------------------------------------
B|-----------------------------------------------------------------------------------------------
G|-----------------------------------------------------------------------------------------------
D|-----------------------------------------------------------------------------------------------
A|-----------------------------------------------------------------------------------------------
E|-0-0-0-0-0-0-0-0-0-0-0-0-1-0-1-0-0-0-0-0-0-0-4-4-4-4-3-3-3-3-1-1-1-1-1-1-1-1-1-1-1-1-1-1-1-1-1-
http://www.guitartabcreator.com
Guitar Tab Creator is intended to store guitar tab created through the tool. It currently does not support in-line text editing. Any text you place in here will be lost. If you need to comment on your tab, please use the "Tab Notes" section located below.