Sweeet Child o mine

(/) Slide Up  (\) Slide Down  (h) Hammer On  (p) Pull Off  (b) Bend (r) Release (v) Vibrato


E|--------------
B|--------------
G|--------------
D|-7-6-4-7-11-4-
A|-4-2-0-4-7--0-
E|-4-2-0-4-7--0-



E|-------------9----------------------12--------------9-------9-------
B|-------10------10----10-------10-------10----10---7---7---7---7---7-
G|-11-11----11------11----11-11----11-------11----9-------9-------9---
D|--------------------------------------------------------------------
A|--------------------------------------------------------------------
E|--------------------------------------------------------------------



E|-------------17-17-17-16-16-16------------------------------------------------
B|-14-14-14-14-------------------17-17-12-14-17-14-14-14-14-10-10-10-10-9-9-9-9-
G|------------------------------------------------------------------------------
D|------------------------------------------------------------------------------
A|------------------------------------------------------------------------------
E|------------------------------------------------------------------------------



E|-------------17-17-17-17-16-16-16-------------------------17-17-17-16-16-16-16-
B|-14-14-14-14----------------------17-12-14-17-14-14-14-14----------------------
G|-------------------------------------------------------------------------------
D|-------------------------------------------------------------------------------
A|-------------------------------------------------------------------------------
E|-------------------------------------------------------------------------------



E|-------15----14-15-14----------15----15-17-15----------19----------19----------
B|-17-17----17----------15-17-17----17----------17-15-17----17-15-17----17-15-17-
G|-------------------------------------------------------------------------------
D|-------------------------------------------------------------------------------
A|-------------------------------------------------------------------------------
E|-------------------------------------------------------------------------------
http://www.guitartabcreator.com
Guitar Tab Creator is intended to store guitar tab created through the tool. It currently does not support in-line text editing. Any text you place in here will be lost. If you need to comment on your tab, please use the "Tab Notes" section located below.