Paradise City

(/) Slide Up  (\) Slide Down  (h) Hammer On  (p) Pull Off  (b) Bend (r) Release (v) Vibrato


E|-----------2-2-2-2-2-
B|-8-8-8-8-8-3-3-3-3-3-
G|-9-9-9-9-9-4-4-4-4-4-
D|-9-9-9-9-9-4-4-4-4-4-
A|-7-7-7-7-7-----------
E|---------------------



E|---------------------------------2-2-2-2-2------------------------------------------------
B|---------------------------------3-3-3-3-3------------------------------------------------
G|---------------------------------4-4-4-4-4-------------------------------0-0-0-0-0-0-0--0-
D|---------------------------------4-4-4-4-4-------------------------------4-4-4-4-4-4-4--4-
A|---------9-----------------------------------------9--------------------------------------
E|-0-0-0-0---7-5-0-5-7-8-0-0-0-0-0-----------0-0-0-0---7-5-0-5-7-8-0-0-0-0------------------



E|-----------------------------------------------------------------------------
B|-----------------------------------------------------------------------------
G|-----------------------------------------------------------------------------
D|-----------------------------------------------------------------------------
A|-------------------------4-----3-------------------------------4-----3-------
E|-0-0-0-0-0-0-0-0-0-0-0-0---1-1---1-1-0-0-0-0-0-0-0-0-0-0-0-0-0---1-1---1-1-0-



E|---------------------------------
B|---------------------------------
G|-9-9-9-9-12-12-12-11-11-11-7-7-7-
D|---------------------------------
A|-7-7-7-7-10-10-10-9--9--9--5-5-5-
E|---------------------------------
http://www.guitartabcreator.com
Guitar Tab Creator is intended to store guitar tab created through the tool. It currently does not support in-line text editing. Any text you place in here will be lost. If you need to comment on your tab, please use the "Tab Notes" section located below.