paper aeroplanes

(/) Slide Up  (\) Slide Down  (h) Hammer On  (p) Pull Off  (b) Bend (r) Release (v) Vibrato


E|-----------------------------------------------------------------------------------------
B|-----------------------------------------------------------------------------------------
G|-----------------------------------------------------------------------------------------
D|-----------------------------------------------------------------------------------------
A|--------5-----3--5--5--------5-----3--5--5--------10-----12--10--8--------8-----7--8--8--
E|--0--0-----0-----------3--3-----3-----------8--8------8-------------7--7-----7-----------



E|------------------------------------------------------------------------------------------------
B|------------------------------------------------------------------------------------------------
G|----------------------------------------------------------------------7------------10-----------
D|----------------------------------------------------------------8--------10--8--7------8--7-----
A|--------5-----3--5--5--------5-----3--5--5--------10-----12-------------------------------------
E|--0--0-----0-----------3--3-----3-----------8--8------8------8-----8-------------------------0--



E|-------------------------------------------------
B|-------------------------------------------------
G|-------------------------------------------------
D|-0-0-0-3-3-3-8-8-8-7-7-7-0-0-0-3-3-3-8-8-8-5-5-5-
A|-0-0-0-3-3-3-8-8-8-7-7-7-0-0-0-3-3-3-8-8-8-5-5-5-
E|-0-0-0-3-3-3-8-8-8-7-7-7-0-0-0-3-3-3-8-8-8-5-5-5-



E|---------------------------------------------------------------------------------------------------------
B|---------------------------------------------------------------------------------------------------------
G|---------------------------------------------------------------------------------------------------------
D|---------------------------------------------------------------------------------------------------------
A|---------------------------------------------------------------------------------------------------------
E|-0-0-0-0-0-0-3-3-3-3-3-3-10-10-10-10-10-10-7-7-7-7-7-7-0-0-0-0-0-0-3-3-3-3-3-3-8-8-8-8-8-8-5-5-5-5-8-7-5-



E|-------------------------------------------------------
B|-------------------------------------------------------
G|-------------------------------------------------------
D|-------------------------------------------------------
A|-------------------------------------------------------
E|-8-8-8-8-8-8-8-8-8-8-8-8-5-5-5-5-5-5-5-5-5-5-5-5-5-7-0-
http://www.guitartabcreator.com
Guitar Tab Creator is intended to store guitar tab created through the tool. It currently does not support in-line text editing. Any text you place in here will be lost. If you need to comment on your tab, please use the "Tab Notes" section located below.