The Opportunist Bass Tab, G# F# B E

(/) Slide Up  (\) Slide Down  (h) Hammer On  (p) Pull Off  (b) Bend (r) Release (v) Vibrato


E|-----------------------------------------------------------------------------
B|-----------------------------------------------------------------------------
G|-----------------------------------------------------------------------------
D|-----------------------------------------------------------------------------
A|-2-2-2-2-2-2-2-2-2-2-2-0-0-0-0-0-0-0-0-0-------------------------------------
E|-----------------------------------------9-9-9-9-9-9-9-9-7-7-7-7-7-7-7-7-7-7-



E|---------------------------------------------------------
B|---------------------------------------------------------
G|---------------------------------------------------------
D|---------------------------------------------------------
A|---------------------------------------------------------
E|-0-0-0-0-0-0-0-----3-3-3-3-3-3-3-3-3-5-5-5-5-5-5-5-5-5-5-



E|----------------------------------------------
B|----------------------------------------------
G|----------------------------------------------
D|----------------------------------------------
A|----------------------------------------2-2-2-
E|-0--0-0-0--0-0-0--0-0-0-0--0-0-0--0-0-0-------
http://www.guitartabcreator.com
Guitar Tab Creator is intended to store guitar tab created through the tool. It currently does not support in-line text editing. Any text you place in here will be lost. If you need to comment on your tab, please use the "Tab Notes" section located below.