Memories

(/) Slide Up  (\) Slide Down  (h) Hammer On  (p) Pull Off  (b) Bend (r) Release (v) Vibrato


E|-------------------------------------------------------------------
B|-------------------------------------------------------------------
G|-------------------------------------------------------------------
D|-------------------------------------------------------------------
A|-5-----5-----5---10---8---7---7-8-5-----5-----5---8-----8-----8-10-
E|---0-0---0-0---0----0---0---0-------5-5---5-5---5---7-7---7-7------



E|-------------------------------------------------------------------------
B|-------------------------------------------------------------------------
G|--------------------------------------------------9h10p9----9------------
D|---------------------------------------------------------12---10-12-9-10-
A|-5-----5-----5---10---8---7---7-8-5-----5-----5--------------------------
E|---0-0---0-0---0----0---0---0-------5-5---5-5---5------------------------



E|-----------------------------------------------------------------
B|-----------------------------------------------------------------
G|-----------------------------------------------------------------
D|-----------------------------------------------------------------
A|-----------------------------------------------------------------
E|-0-0-0-0-0-0-0-0-0-0-0-0-0-0-0-0-5-5-5-5-5-5-5-5-8-8-8-8-8-8-8-8-



E|-------------------------------------------------------------------
B|-------------------------------------------------------------------
G|-------------------------------------------------------------------
D|-------------------------------------------------------------------
A|-------------------------------------------------------------------
E|-0-0-0-0-0-0-0-0-0-0-0-0-0-0-0-0-5-5-5-5-5-5-5-5-3-3-3-3-3-3-3-3-0-
http://www.guitartabcreator.com
Guitar Tab Creator is intended to store guitar tab created through the tool. It currently does not support in-line text editing. Any text you place in here will be lost. If you need to comment on your tab, please use the "Tab Notes" section located below.