Live And Let Die

(/) Slide Up  (\) Slide Down  (h) Hammer On  (p) Pull Off  (b) Bend (r) Release (v) Vibrato

E|-----------------------------------------------------
B|-----------------------------------------------------
G|-----------------------------------------------------
D|-----------------------------------------------------
A|--------------------------------------------8-12-8-0-
E|-0-0-0-0-0-0-0-0-1-0-0-0-0-0-0-0-0-0-8-12-0----------



E|------------------------------------------------------------
B|------------------------------------------------------------
G|------------------------------------------------------------
D|------------------------------------------------------------
A|------------------------------------------------------------
E|-0-0-0-8-0-0-0-0-0-0-0-7-10-7-0-0-0-8-0-0-0-0-3-3-3-3-7-7-7-



E|--2--2--2--2--------------------------
B|--3--3--3--3--------8--8--------------
G|--4--4--4--4--------9--9--------------
D|--4--4--4--4--9--9--9--9--12--12--12--
A|--2--2--2--2--5--5--7--7--9---9---9---
E|--------------------------------------
http://www.guitartabcreator.com
Guitar Tab Creator is intended to store guitar tab created through the tool. It currently does not support in-line text editing. Any text you place in here will be lost. If you need to comment on your tab, please use the "Tab Notes" section located below.