Home Improvement Tab

(/) Slide Up  (\) Slide Down  (h) Hammer On  (p) Pull Off  (b) Bend (r) Release (v) Vibrato


E|----------------------------------------------------------------
B|----------------------------------------------------------------
G|----------------------------------------------------------------
D|-4-4-4-4-6-6-6-6-6-6-6-6-11-11-11-4-4-4-6-6-6-6-6-6-11-11-6-6-6-
A|-0-0-0-0-2-2-2-2-4-4-4-4-7--7--7--0-0-0-2-2-2-4-4-4-7--7--2-2-2-
E|-0-0-0-0-2-2-2-2-4-4-4-4-7--7--7--0-0-0-2-2-2-4-4-4-7--7--2-2-2-



E|-------------------------------------------------------------------------
B|-------------------------------------------------------------------------
G|-------------------------------------------------------------------------
D|-------------------------------------------------------------------------
A|-------------------------------------------------------------------------
E|-0-0-0-0-0-0-2-2-2-4-4-4-4-4-4-4-7-7-7-0-0-0-0-0-0-0-2-2-2-4-4-4-4-7-7-7-



E|-16h17p16----14----14----------------------16h17p16----14----14----------------------
B|----------17----17----17-14h17p14-12-12h14----------17----17----17-14h17p14----------
G|----------------------------------------------------------------------------13-13h14-
D|-------------------------------------------------------------------------------------
A|-------------------------------------------------------------------------------------
E|-------------------------------------------------------------------------------------



E|-16h17p16----14----14----17-17-17-17-19-19-19-
B|----------17----17----17----------------------
G|----------------------------------------------
D|----------------------------------------------
A|----------------------------------------------
E|----------------------------------------------
http://www.guitartabcreator.com
Guitar Tab Creator is intended to store guitar tab created through the tool. It currently does not support in-line text editing. Any text you place in here will be lost. If you need to comment on your tab, please use the "Tab Notes" section located below.