Garden of eden john Guitar

(/) Slide Up  (\) Slide Down  (h) Hammer On  (p) Pull Off  (b) Bend (r) Release (v) Vibrato


E|---------------------------------------------------
B|---------------------------------------------------
G|---------------------------------------------------
D|---7--------7---------3--------3-------------------
A|-----8--------8---------5--------5-3-3-3-3-5-5-5---
E|-8--------8---------0--------0-------------------8h



E|---------------------------------------------------------------------------------
B|---------------------------------------------------------------------------------
G|---------------------------------------------------------------------------------
D|---------------------------------------------------------------------7-3---3-----
A|-------------------------------------------------------------------------7---7-3-
E|-8-8-8-8-8-8-8-8-8-8-8-8-7-7-7-7-7-7-7-7-7-7-7-7-0-0-0-0-0-0-0-0-0-0-------------
http://www.guitartabcreator.com
Guitar Tab Creator is intended to store guitar tab created through the tool. It currently does not support in-line text editing. Any text you place in here will be lost. If you need to comment on your tab, please use the "Tab Notes" section located below.