Garden of eden Andrew guitar

(/) Slide Up  (\) Slide Down  (h) Hammer On  (p) Pull Off  (b) Bend (r) Release (v) Vibrato


E|-------------------------------------------
B|-------13-10-------13----------------------
G|----10----------10----12-12-12-12-14-14-14-
D|-12----------12----------------------------
A|-------------------------------------------
E|-------------------------------------------



E|----------------------------------------------------------------------------------------------------
B|----------------------------------------------------------------------------------------------------
G|-7-7-7-7-7-7-7-7-9-9-9-9-10-10-10-10-10-10-10-5-5-5-5-5-5-7-7-7-7-7-9-9-9-10-10-12-12-12-14-14-14---
D|----------------------------------------------------------------------------------------------------
A|----------------------------------------------------------------------------------------------------
E|----------------------------------------------------------------------------------------------------



E|----------------------------------------
B|-------13-10-------13-------------------
G|----10----------10----12-12-12-12-14-14-
D|-12----------12-------------------------
A|----------------------------------------
E|----------------------------------------



E|------------------------------
B|------------------------13----
G|-10-9--------------10-9----10-
D|------12-7-7-7-7-7------------
A|------------------------------
E|------------------------------



E|-18-18-18-18-18-18-18-18-17-17-17-17-17-17-17-------------------------------------------------------
B|----------------------------------------------18-18-18-18-15-15-15-15-15-15-17-17-17-18-18-18-18-18-
G|----------------------------------------------------------------------------------------------------
D|----------------------------------------------------------------------------------------------------
A|----------------------------------------------------------------------------------------------------
E|----------------------------------------------------------------------------------------------------



E|-18-18-18-18-18-18-17-17-17-17-17-17-17-20-20-20-20-21-21-21-21-21-21-
B|----------------------------------------------------------------------
G|----------------------------------------------------------------------
D|----------------------------------------------------------------------
A|----------------------------------------------------------------------
E|----------------------------------------------------------------------
http://www.guitartabcreator.com
Guitar Tab Creator is intended to store guitar tab created through the tool. It currently does not support in-line text editing. Any text you place in here will be lost. If you need to comment on your tab, please use the "Tab Notes" section located below.