City Lights

(/) Slide Up  (\) Slide Down  (h) Hammer On  (p) Pull Off  (b) Bend (r) Release (v) Vibrato


E|---------------------------------------------------------------------------------------
B|---------------------------------------------------------------------------------------
G|---------------------------------------------------------------------------------------
D|----------------------------8-----------------------------8----------------------------
A|-------------------------12---12-----------------------12---12-------------------------
E|-0-0-0-0-0-0-0-0-0-0-0-0---------0-0-0-0-0-0-0-0-0-0-0---------0-0-0-0-0-0-0-0-0-0-0-0-



E|------------------------------------------------------------------
B|------------------------------------------------------------------
G|------------------------------------------------------------------
D|--------------------------------------------------2-2-2-2-2-3-3---
A|---------7h10-7-8---------5h8-5-7---------3h7-3---3-3-3-3-3-5-5---
E|-0-0-0-0----------0-0-0-0---------0-0-0-0-------0---------------0-



E|-------------------------------------------
B|-------------------------------------------
G|-------------------------------------------
D|-0-0-0-0-0-0-7-7-7-7-7-3-3-3-3-3-5-5-5-5-5-
A|-0-0-0-0-0-0-7-7-7-7-7-3-3-3-3-3-5-5-5-5-5-
E|-0-0-0-0-0-0-7-7-7-7-7-3-3-3-3-3-5-5-5-5-5-
http://www.guitartabcreator.com
Guitar Tab Creator is intended to store guitar tab created through the tool. It currently does not support in-line text editing. Any text you place in here will be lost. If you need to comment on your tab, please use the "Tab Notes" section located below.