Chinese Democracy Tab Drop B

(/) Slide Up  (\) Slide Down  (h) Hammer On  (p) Pull Off  (b) Bend (r) Release (v) Vibrato
E|----------------------------------------------------------------------------------------------------
B|----------------------------------------------------------------------------------------------------
G|----------------------------------------------------------------------------------------------------
D|---------------------------0-5-8-----------------------------------0-5-8----------------------------
A|---------------------0-5-8-------5-8-------------------------0-5-8-------5-8------------------------
E|-0-0-0-0-0-0-0-0-0-0-----------------0-0-0-0-0-0-0-0-0-0-0-0-----------------0-0-0-0-8-8-8-10-10-10-



E|---------------------------------------------------------------
B|---------------------------------------------------------------
G|---------------------------------------------------------------
D|---------------------------------------------7-7---------------
A|---------------------------------5-5-7-7-8-8-----8-8-5-5-------
E|-0-0-0-0-3-3-3-3-3-5-5-5-5-5-8-8-------------------------8-8---



E|---------------------------------
B|---------------------------------
G|---------------------------------
D|-0-0-0-0-7-7-7-7-5-5-5-5-5-5-5-5-
A|-0-0-0-0-3-3-3-3-3-3-3-3-5-5-5-5-
E|-0-0-0-0-3-3-3-3-2-2-2-2-5-5-5-5-



E|--------------------------------------
B|--------------------------------------
G|--------------------------------------
D|--------------------------------------
A|--------------------------------------
E|--0--0--1--0--0--0--0--0--12--12--12--
http://www.guitartabcreator.com
Guitar Tab Creator is intended to store guitar tab created through the tool. It currently does not support in-line text editing. Any text you place in here will be lost. If you need to comment on your tab, please use the "Tab Notes" section located below.