8 years

(/) Slide Up  (\) Slide Down  (h) Hammer On  (p) Pull Off  (b) Bend (r) Release (v) Vibrato


E|-------------------------------------------------------------------------
B|-------------------------------------------------------------------------
G|-------------------------------------------------------------------10----
D|-------------------------------------------------------------10-14----14-
A|-12-----------------------7-10-7---12-------------------8-12-------------
E|----8-0-0-0-0-0-0-0-0-7-8--------8----8-0-0-0-0-0-0-0-0------------------



E|-----------------------------------------------------------------------------
B|-----------------------------------------------------------------------------
G|-----------------------------------------------------------------------------
D|-----------------------------------------------------------------------------
A|-12-----------------------7-10-7-----------12-13-12-10-12---------8-10-8-7-8-
E|----8-0-0-0-0-0-0-0-0-7-8--------8-8-8-8-8----------------7-7-7-7------------



E|-----------------------------------------------------------------------
B|-----------------------------------------------------------------------
G|-----------------------------------------------------------------------
D|-----------------------------------------------------12p0-7-8-7-8-7----
A|-12-----------------------7-10-7------------------------------------10-
E|----8-0-0-0-0-0-0-0-0-7-8--------8-8-8-8-8-8-8-8-8-8-------------------



E|-----------------------------------------------------------------
B|-----------------------------------------------------------------
G|-----------------------------------------------------------------
D|-----------------------------------------------------------------
A|-----------------------------------------------------------------
E|-0-0-0-0-0-0-0-0-3-3-3-3-3-3-3-3-5-5-5-5-5-5-5-5-8-8-8-8-7-7-7-7-



E|---------------------------------------------------------------------
B|---------------------------------------------------------------------
G|---------------------------------------------------------------------
D|---------------------------------------------------------------------
A|---------------------------------------------------------------------
E|-0-0-0-0-0-0-0-0-3-3-3-3-3-3-3-3-5-5-5-5-5-5-5-5-8-8-8-8-10-10-10-10-



E|-----------------------------------------------------------------------10-13-10----
B|--------------------------------------------------------------------------------10-
G|--------------------------------10-14-9---------------------------10---------------
D|----------------------10---14--------------------------------12--------------------
A|-------8---12---------------------------------8---12-------------------------------
E|-0-0-0---0----0-0-0-0----0----0---------0-0-0---0----0-0-0-0----0----0-------------



E|--------------------------------------------------------------------------------
B|--------------------------------------------------------------------------------
G|--------------------------------10-14-10-9--------------------------------------
D|----------------------10---14-----------------------------------5-8-5-----------
A|-------8---12------------------------------------8---12---------------8-5-8-5-4-
E|-0-0-0---0----0-0-0-0----0----0------------0-0-0---0----0-0-0-0-----------------



E|-------------------------------------------------------------------
B|-------------------------------------------------------------------
G|-----------------------------6-7-6---------------------------------
D|---------------------5-5-8-8-------8---------------5-8-5-----------
A|---5-5-5-5-8-8-8-8-8-------------------5-5-8-8-8-8-------8-5-8-5-4-
E|-0-----------------------------------0-----------------------------



E|----------------------------------------------------------------------------------------------
B|----------------------------------------------------------------------------------------------
G|---------------------------6-7-6--------------------14-10-9-10-9----9-------------------------
D|-------------------5-5-8-8-------8---------------12--------------12---11-12-9-11----9---------
A|---5-5-5-5-8-8-8-8-------------------5-5-8-8-8-8---------------------------------12---10-12---
E|-0---------------------------------0--------------------------------------------------------0-



E|---------------------------------------------------------------------------------------------
B|---------------------------------------------------------------------------------------------
G|---------------------------------------------------------------------------------------------
D|-------------------------------------------------------------8-8-12-12-8-8-------------------
A|---------------------------------------------------8-8-12-12---------------12-12-8-8---------
E|-0-0-0-0-0-0-0-0-0-0-0-0-0-0-1-0-0-0-0-0-8-8-12-12-----------------------------------0-0-0-0-
http://www.guitartabcreator.com
Guitar Tab Creator is intended to store guitar tab created through the tool. It currently does not support in-line text editing. Any text you place in here will be lost. If you need to comment on your tab, please use the "Tab Notes" section located below.