Schenker Style Riff01

(/) Slide Up  (\) Slide Down  (h) Hammer On  (p) Pull Off  (b) Bend (r) Release (v) Vibrato

Stave 1:

E|----------------------------------------------------------------------------------12--12------
B|----------------------------------------------------------12------12------12--15----------15--
G|----------------------------------12------12------12--14------14------14----------------------
D|----------12------12------12--14------14------14----------------------------------------------
A|--12--14------14------14----------------------------------------------------------------------
E|----------------------------------------------------------------------------------------------

Stave 2:

E|---------------------------------------------------------------------------------
B|--------------------------------------------------12------12--15--12--15--15b17--
G|--------------------------12------12--14--12--14------14-------------------------
D|--12------12--14--12--14------14-------------------------------------------------
A|------14-------------------------------------------------------------------------
E|---------------------------------------------------------------------------------

http://www.guitartabcreator.com
Guitar Tab Creator is intended to store guitar tab created through the tool. It currently does not support in-line text editing. Any text you place in here will be lost. If you need to comment on your tab, please use the "Tab Notes" section located below.