Pentatonic Trill Exercise

(/) Slide Up  (\) Slide Down  (h) Hammer On  (p) Pull Off  (b) Bend (r) Release (v) Vibrato

E|-----------------------------------------------------------------------------
B|-----------------------------------------------------------------------------
G|-----------------------------------------------------------------------------
D|-----------------------------------------------------------------------------
A|--------------------------3--5--3--5--3--5--3--5--5--7--5--7--5--7--5--7-----
E|--3--5--3--5--3--5--3--5-----------------------------------------------------



E|--------------------------------------------------------------------------
B|--------------------------------------------------------------------------
G|--------------------------5--7--5--7--5--7--5--7--7--9--7--9--7--9--7--9--
D|--5--7--5--7--5--7--5--7--------------------------------------------------
A|--------------------------------------------------------------------------
E|--------------------------------------------------------------------------



E|------------------------------8--10--8--10--8--10--8--10------------------------------
B|--8--10--8--10--8--10--8--10------------------------------8--10--8--10--8--10--8--10--
G|--------------------------------------------------------------------------------------
D|--------------------------------------------------------------------------------------
A|--------------------------------------------------------------------------------------
E|--------------------------------------------------------------------------------------



E|--------------------------------------------------------------------------
B|--------------------------------------------------------------------------
G|--7--9--7--9--7--9--7--9--5--7--5--7--5--7--5--7--------------------------
D|--------------------------------------------------5--7--5--7--5--7--5--7--
A|--------------------------------------------------------------------------
E|--------------------------------------------------------------------------



E|--------------------------------------------------------------------------
B|--------------------------------------------------------------------------
G|--------------------------------------------------------------------------
D|--------------------------------------------------------------------------
A|--5--7--5--7--5--7--5--7--3--5--3--5--3--5--3--5--------------------------
E|--------------------------------------------------3--5--3--5--3--5--3--5--
http://www.guitartabcreator.com
Guitar Tab Creator is intended to store guitar tab created through the tool. It currently does not support in-line text editing. Any text you place in here will be lost. If you need to comment on your tab, please use the "Tab Notes" section located below.