Pentatonic Pattern 6

(/) Slide Up  (\) Slide Down  (h) Hammer On  (p) Pull Off  (b) Bend (r) Release (v) Vibrato

Stave 1:

E|--3-------5--3-------5--3-------5--3-------5--
B|-----5p3--------5p3--------5p3--------5p3-----
G|----------------------------------------------
D|----------------------------------------------
A|----------------------------------------------
E|----------------------------------------------

Stave 2:

E|--5-------8--5-------8--5-------8--5-------8--
B|-----8p5--------8p5--------8p5--------8p5-----
G|----------------------------------------------
D|----------------------------------------------
A|----------------------------------------------
E|----------------------------------------------

Stave 3:

E|--8--------10--8--------10--8--------10--8--------10--
B|-----10p8---------10p8---------10p8---------10p8------
G|------------------------------------------------------
D|------------------------------------------------------
A|------------------------------------------------------
E|------------------------------------------------------

Stave 4:

E|--10---------12--10---------12--10---------12--10---------12--
B|------13p10----------13p10----------13p10----------13p10------
G|--------------------------------------------------------------
D|--------------------------------------------------------------
A|--------------------------------------------------------------
E|--------------------------------------------------------------

Stave 5:

E|--12---------15--12---------15--12---------15--12---------15--
B|------15p13----------15p13----------15p13----------15p13------
G|--------------------------------------------------------------
D|--------------------------------------------------------------
A|--------------------------------------------------------------
E|--------------------------------------------------------------

Stave 6:

E|--15---------17--15---------17--15---------17--15---------17--
B|------17p15----------17p15----------17p15----------17p15------
G|--------------------------------------------------------------
D|--------------------------------------------------------------
A|--------------------------------------------------------------
E|--------------------------------------------------------------

http://www.guitartabcreator.com
Guitar Tab Creator is intended to store guitar tab created through the tool. It currently does not support in-line text editing. Any text you place in here will be lost. If you need to comment on your tab, please use the "Tab Notes" section located below.