Blues Repeater 01

(/) Slide Up  (\) Slide Down  (h) Hammer On  (p) Pull Off  (b) Bend (r) Release (v) Vibrato

Stave 1:

E|--11--8--10--8------11--8--10--8------11--8--10--8------11--8--10--8------
B|----------------10----------------10----------------10----------------10--
G|--------------------------------------------------------------------------
D|--------------------------------------------------------------------------
A|--------------------------------------------------------------------------
E|--------------------------------------------------------------------------

Stave 2:

E|--12--8--10--8------12--8--10--8------12--8--10--8------12--8--10--8------
B|----------------10----------------10----------------10----------------10--
G|--------------------------------------------------------------------------
D|--------------------------------------------------------------------------
A|--------------------------------------------------------------------------
E|--------------------------------------------------------------------------

Stave 3:

E|--8--5--7--5-----7--5--------8--5--7--5-----7--5--------
B|--------------7--------7--5--------------7--------7--5--
G|--------------------------------------------------------
D|--------------------------------------------------------
A|--------------------------------------------------------
E|--------------------------------------------------------

Stave 4:

E|--------------------------------------------------
B|--13--10--12--10------10--13--10--12--10------10--
G|------------------11----------------------11------
D|--------------------------------------------------
A|--------------------------------------------------
E|--------------------------------------------------

http://www.guitartabcreator.com
Guitar Tab Creator is intended to store guitar tab created through the tool. It currently does not support in-line text editing. Any text you place in here will be lost. If you need to comment on your tab, please use the "Tab Notes" section located below.