sang 2

(/) Slide Up  (\) Slide Down  (h) Hammer On  (p) Pull Off  (b) Bend (r) Release (v) Vibrato
E|--8--------7--------5--------5--------5-----------------------------------------------
B|-----5--------5--------5--------5--------5--8--------6--------5--------5--------5-----
G|--------5--------5--------5--------5-----------5--------5--------5--------5--------5--
D|--7--------7--------7-----------------------5-----5--5-----5--5-----5--------5--------
A|--------------------------------------------------------------------------------------
E|--------------------------------------------------------------------------------------



E|----------------0--------0h3p0--------0----------------------------------0--1--------
B|-------------1-----1------------1--------3p1--1p0---------------1--------------1-----
G|----------2-----------2------------2-------------------------0-----0--------------0--
D|--7\3--3-----------------3------------3-----------------0h2--2--------2--------------
A|---------------------------------------------------0h3-------3-----------3-----------
E|-------------------------------------------------------------1-----------------------



E|--------------------------------------------
B|-----------1-----------1--------------------
G|--------0-----------4-----4--------4--------
D|-----2-----------2-----------2--------------
A|--3-----------3-----------------3-----------
E|-----------------------------------1--------
http://www.guitartabcreator.com
Guitar Tab Creator is intended to store guitar tab created through the tool. It currently does not support in-line text editing. Any text you place in here will be lost. If you need to comment on your tab, please use the "Tab Notes" section located below.