Count of tuscany

(/) Slide Up  (\) Slide Down  ( ) = Harmonic
E|--------------------------------------------------------------
B|--------0--------------0--------------0--------------0--------
G|-----------3--------------3--------------3--------------3-----
D|-----4--------4-----4--------4-----4--------4-----4--------4--
A|--------------------------------2--------------2--------------
E|--4--------------4--------------------------------------------



E|-----------------------------------------------------------------
B|--------0--------------0--------------0--------------0--------0--
G|-----------3--------------3--------------3-----------------3-----
D|-----4--------4-----4--------4-----4--------4-----4-----4--------
A|-----------------------------------------------------------------
E|--2--------------2--------------0--------------0-----------------



E|-----------------------------------------------------------------
B|--------0--------------0-----------------------------------------
G|-----------3--------------3-----------6--------------8--9--8-----
D|-----4--------4-----4--------4-----------8--------------------9--
A|-----------------------------------9--------9-----9--------------
E|--4--------------4--------------6--------------7-----------------



E|--------------------------------------------------------------------
B|--------0--------------0--------0--------0--------------0--------0--
G|-----------3-----------------3--------------3-----------------3-----
D|-----4--------4-----4-----4-----------4--------4-----4-----4--------
A|--------------------------------------------------------------------
E|--0--------------0-----------------0--------------0-----------------

IMPROVISED SOLO

E|-----(12)----------------(5)--------------------
B|-----(12)--------0-------(5)--------0--------0--
G|------------3------------------3---------3------
D|---------4------------------4---------6---------
A|------------------------------------------------
E|--0---------------0-----------------------------

x3

E|-----(12)--------------(5)-----------------------0--------
B|-----(12)--------0-----(5)--------0--------0--------0-----
G|------------3-----------------3--------3-----3------------
D|---------4----------------4---------6---------------------
A|----------------------------------------------------------
E|--0---------------0---------------------------------------



E|-----
B|-----
G|-----
D|-----
A|-----
E|-----



E|------------------------
B|-----9--------11--------
G|-----9------------11\9-- x2
D|-----9--9/11------------
A|------------------------
E|--0---------------------

x4

E|----------------------
B|-----9--------11------
G|--------9---------11--
D|----------------------
A|----------------------
E|--0--------0----------



E|-----------------------------------------------------------------------------
B|--------------0-----------------0-----------------0-----------------0--------
G|-----------3-----3-----------3-----3-----------3-----3-----------3-----3-----
D|--------4-----------4-----4-----------4-----4-----------4-----4-----------4--
A|-----------------------------------------2-----------------2-----------------
E|--2--4-----------------4-----------------------------------------------------



E|--------------------------------------------------------------------------
B|-----------0-----------------0-----------------0-----------------0--------
G|--------3-----3-----------3-----3-----------3-----3-----------3-----3-----
D|-----4-----------4-----4-----------4-----4-----------4-----4-----------4--
A|--------------------------------------------------------------------------
E|--2-----------------2-----------------0-----------------0-----------------



E|-----------------------------------------------------------------------------
B|-----------0-----------------0-----------------------------------------------
G|--------3-----3-----------3-----3--------------6--------------8--9--8--------
D|-----4-----------4-----4-----------4--------8-----8--------------------9-----
A|-----------------------------------------9-----------9-----9--------------9--
E|--4-----------------4-----------------6-----------------7--------------------



E|--------------------------------------------------------------------
B|--------0--------------0--------0--------0--------------0--------0--
G|-----------3-----------------3--------------3-----------------3-----
D|-----4--------4-----4-----4-----------4--------4-----4-----4--------
A|--------------------------------------------------------------------
E|--0--------------0-----------------0--------------0-----------------



E|--4--
B|--4--
G|--4--
D|--6--
A|--6--
E|--4--
http://www.guitartabcreator.com
Guitar Tab Creator is intended to store guitar tab created through the tool. It currently does not support in-line text editing. Any text you place in here will be lost. If you need to comment on your tab, please use the "Tab Notes" section located below.