Single File

(/) Slide Up  (\) Slide Down  (h) Hammer On  (p) Pull Off  (b) Bend (r) Release (v) Vibrato


E|--------------------------------------------------
B|--------------------------------------------------
G|--------------------------------------------------
D|--------------------------------------------------
A|--------------------------------------------------
E|--0--0------0--0------0--0------0--0--0--0--0--0--



E|--------------------------------------------------------------------------
B|--------------------------------------------------------------------------
G|--------3p0--2p0--------3p0--2p0--------3p0--2p0--------------------------
D|--------------------------------------------------------------------------
A|--------------------------------------------------2--2--2-----------------
E|--0--0------------0--0------------0--0---------------------3--3--3--3-----



E|--------------------------------------------------------------------------
B|--------------------------------------------------------------------------
G|--------3p0--2p0--------3p0--2p0--------3p0--2p0--------------------------
D|--------------------------------------------------------------------------
A|--------------------------------------------------2--2--2-----------------
E|--0--0------------0--0------------0--0---------------------3--3--3--3-----



E|-----------------------------------------------------------------------------
B|-----------------------------------------------------------------------------
G|-----------------------------------------------------------------------------
D|-----------------------------------------------------------------------------
A|--------5--3--------------5--3--------------5--3--------1--1--1--------------
E|--0--0--------5--4--0--0--------5--4--0--0--------5--4-----------2--2--2--2--



E|-----------------------------------------------------------------------
B|-----------------------------------------------------------------------
G|--------3p0--2p0--------3p0--2p0--------3p0--2p0-----------------------
D|-----------------------------------------------------------------------
A|--------------------------------------------------2--2--2--------------
E|--0--0------------0--0------------0--0---------------------3--3--3--3--



E|-----------------------------------------------------------------------------------------
B|-----------------------------------------------------------------------------------------
G|-----------------------------------------------------------------------------------------
D|-----------------------------------------------------------------------------------------
A|--2--4--4--4--4--4--4-----------------------2--4--4--4--4--4--4--------------------------
E|-----------------------3--3--3--3--2--2--2-----------------------3--3--3--3--2--2--2-----



E|--------------------------------------------------------------------------------
B|--------------------------------------------------------------------------------
G|--------------------------------------------------------------------------------
D|--------------------------------------------------------------------------------
A|--2--4--4--4--4--4--4--4-----------------------7--7--7--7--7--7-----------------
E|--------------------------3--3--3--3--2--2--2--------------------6--6--6--6--6--
http://www.guitartabcreator.com
Guitar Tab Creator is intended to store guitar tab created through the tool. It currently does not support in-line text editing. Any text you place in here will be lost. If you need to comment on your tab, please use the "Tab Notes" section located below.