(The) Icon Effect (practice tab)

(/) Slide Up  (\) Slide Down  (h) Hammer On  (p) Pull Off  (b) Bend (r) Release (v) Vibrato


E|----------------------------------------------------------------------------------------------
B|----------------------------------------------------------------------------------------------
G|----------------------------------------------------------------------------------------------
D|------------------------5--5--5--5--5--5--5--5------------------------5--5--5--5--8--8--8--8--
A|--7p4--4--4--7p4--4--4--------------------------7p4--4--4--7p4--4--4--------------------------
E|----------------------------------------------------------------------------------------------



E|------------------------------------------------------------------------
B|------------------------------------------------------------------------
G|------------------------------------------------------------------------
D|------------------------5--5--5--5--5--5--5--5--------------------------
A|--7p4--4--4--7p4--4--4--------------------------7p4--4--4--7p4--4--4--6b
E|------------------------------------------------------------------------



E|----------------------------------------------------------------------------------------------
B|----------------------------------------------------------------------------------------------
G|----------------------------------------------------------------------------------------------
D|----------------------------------------------------------------------------------------------
A|--4--3----4--3----4--3---------------------------4--3----4--3----4--3-------------------------
E|--------------------------5--5--5--5--4--4--4----------------------------5--5--5--5--4--4--4--



E|-------------------------------------------------------------------------------------
B|-------------------------------------------------------------------------------------
G|-------------------------------------------------------------------------------------
D|-------------------------------------------------------------------------------------
A|-----------4----------------------------------------------4--------------------------
E|--5--5--5-----3--3--3--3--2--0--2--0----5--5--5--5--5--5-----3--3--3--3--6--6--6--6--
http://www.guitartabcreator.com
Guitar Tab Creator is intended to store guitar tab created through the tool. It currently does not support in-line text editing. Any text you place in here will be lost. If you need to comment on your tab, please use the "Tab Notes" section located below.