Charlie (Practice tab)

(/) Slide Up  (\) Slide Down  (h) Hammer On  (p) Pull Off  (b) Bend (r) Release (v) Vibrato


E|----------------------------------------------------------------------------------------------------
B|----------------------------------------------------------------------------------------------------
G|----------------------------------------------------------------------------------------------------
D|----------------------------------------------------------------------------------------------------
A|--3--3----------2--3--2--3--2----3--3---------------3--3----------2--3--2--3--2----3--3-------------
E|--------3/4--4-------------------------3/4--4--3----------3/4--4-------------------------3/4--4--3--



E|--------------------------------------------------------------------------------
B|--------------------------------------------------------------------------------
G|--------------------------------------------------------------------------------
D|--------------------------------------------------------------------------------
A|--5--2-----2----4--4--4--4--2--2--2--2----5--2-----2----7--7--7--7--------------
E|--------3---------------------------------------3-------------------6--6--6--6--



E|------------------------------------------------------------------------------
B|------------------------------------------------------------------------------
G|------------------------------------------------------------------------------
D|------------------------------------------------------------------------------
A|--5--2-----2----4--4--4--4--2--2--2--2----4--4--4--4--4--5--5--5--5--5--5--5--
E|--------3---------------------------------------------------------------------
http://www.guitartabcreator.com
Guitar Tab Creator is intended to store guitar tab created through the tool. It currently does not support in-line text editing. Any text you place in here will be lost. If you need to comment on your tab, please use the "Tab Notes" section located below.