Bend Me Practice Tab

(/) Slide Up  (\) Slide Down  (h) Hammer On  (p) Pull Off  (b) Bend (r) Release (v) Vibrato
E|--------------------------------------------------------------
B|--------------------------------------------------------------
G|--------------------------------------------------------------
D|--------------------------------------------------------------
A|--------------------------------------------------------------
E|--4--4--0--3------4--4--0--3------4--4--0--3------4--4--0--3--



E|------------------------------------------------------------------------------------
B|------------------------------------------------------------------------------------
G|------------------------------------------------------------------------------------
D|------------------------------------------------------------------------------------
A|--------------2/3--3--3--3--3--6--6--6--6--------------2/3--3--3--3--3--------------
E|--4--4--0--3-------------------------------4--4--0--3-------------------2--2--2--2--



E|--------------------------------------------------------------------------------
B|--------------------------------------------------------------------------------
G|--------------------------------------------------------------------------------
D|-----------------------------------------------------------------4p0--3p0-------
A|--------------2/3--3--3--3--3--6--6--6--6--------------2p0--3p0------------4p0--
E|--4--4--0--3-------------------------------4--4--0--3---------------------------



E|-----------------------------------------------------------------------------
B|-----------------------------------------------------------------------------
G|-----------------------------------------------------------------------------
D|-----------------------------------------------------------------------------
A|--3--3--3--3--3----------------0h2/3--3--3--3--3--3----------------0h2/3-----
E|-----------------2--2--2--3p0------------------------2--2--2--3p0------------



E|--------------------------------------------------------
B|--------------------------------------------------------
G|--------------------------------------------------------
D|--------------------------------------------------------
A|--------------2--2--2--2--0--------------1--1--1--1--0--
E|--4--4--0--3-----------------4--4--0--3-----------------
http://www.guitartabcreator.com
Guitar Tab Creator is intended to store guitar tab created through the tool. It currently does not support in-line text editing. Any text you place in here will be lost. If you need to comment on your tab, please use the "Tab Notes" section located below.