Valu

(/) Slide Up  (\) Slide Down  (h) Hammer On  (p) Pull Off  (b) Bend (r) Release (v) Vibrato

Intro:
F|--7--10-----|--5h7--5-----------5--|-----------|---------------------|-----
C|---------7--|----------7--5--7-----|-----7-----|--5h7r5--------------|-----
G|------------|----------------------|-----------|---------7--5--------|-----
D|------------|----------------------|--5-----5--|---------------8--5--|-----



F|--7--10-----|--5h7--5-----------5--|--------------------------------|--
C|---------7--|----------7--5--7-----|--7--7--5--5--------------------|--
G|------------|----------------------|--------------5--5--3--3--3-----|--
D|------------|----------------------|-----------------------------5--|--





Riff 1:
F|--------------------------------|--------------------------------|--
C|-----7-----5h7r5----------------|--------------------------------|--
G|--------5---------7--5----------|--------------------------3-----|--
D|--5---------------------8p7--5--|--3--5--3--5--3--5--3--5-----5--|--



Bridge:
F|-----------------|-----------------|-----------------|-----------------|-
C|-----------------|-----------------|-----------------|-----------------|-
G|-----------------|-----------------|-----------------|-----------------|-
D|-3-3-3-3-3-3-3-3-|-5-5-5-5-5-5-5-5-|-6-6-6-6-6-6-6-6-|-5-5-5-5-5-5-5-5-|-


Verse & Ref:
F|-------------------|-------------------|-------------------|-------------------------|-
C|-------------------|-------------------|-------------------|-------------------------|-
G|---------------3---|---------------3---|---------------3---|-------------------3-5-3-|-
D|-3-5-5-5-3-5-5---5-|-3-5-5-5-3-5-5---5-|-3-5-5-5-3-5-5---5-|-3-5-3-5-3-5-3-5-5-------|-
http://www.guitartabcreator.com
Guitar Tab Creator is intended to store guitar tab created through the tool. It currently does not support in-line text editing. Any text you place in here will be lost. If you need to comment on your tab, please use the "Tab Notes" section located below.