In progress

(/) Slide Up  (\) Slide Down  (h) Hammer On  (p) Pull Off  (b) Bend (r) Release (v) Vibrato

E|---------------------------------------|---------------------------------------|--
B|---------------------------------------|---------------------------------------|--
G|--7--10-----7-----5--------------5-----|--5-----------4h5p4--------------------|--
D|---------7-----7-----7--5--7--7-----7--|-----7--5--7---------7-----------------|--
A|---------------------------------------|------------------------7--------------|--
E|---------------------------------------|---------------------------8--7--8--5--|--



E|----------------------------|-------------------------|--
B|----------------------------|-------------------------|--
G|--4b5r4--2--4b5r4--2--4--5--|--4--5--7--5--7--9b12r9--|--
D|----------------------------|-------------------------|--
A|----------------------------|-------------------------|--
E|----------------------------|-------------------------|--
http://www.guitartabcreator.com
Guitar Tab Creator is intended to store guitar tab created through the tool. It currently does not support in-line text editing. Any text you place in here will be lost. If you need to comment on your tab, please use the "Tab Notes" section located below.