Ole

(/) Slide Up  (\) Slide Down  (h) Hammer On  (p) Pull Off  (b) Bend (r) Release (v) Vibrato

E|--------0------0--1--3--1--3--1--0-----------------------------------------0--------
B|--------0---------------------------3--1--0--------------------------------0--------
G|-----0--0------------------------------------2--0--------------------------0--------
D|--2--2--2------------------------------------------3--2--0-----------------2--------
A|--2--2--2---------------------------------------------------3--2--0--------2--------
E|--0--0--0------------------------------------------------------------3--1--0--------



E|--0--1--0--3/5--5--5--5--3--1--0h1h0-----0------------------------------------------------------0-----
B|--------------------------------------3-----3/5------3--1--0h1h0--------------------------------0-----
G|------------------------------------------------------------------2--0--------------------------0-----
D|------------------------------------------------------------------------3--2--0-----------------2-----
A|---------------------------------------------------------------------------------3--2--0--------2--2--
E|------------------------------------------------------------------------------------------3--1--0-----
http://www.guitartabcreator.com
Guitar Tab Creator is intended to store guitar tab created through the tool. It currently does not support in-line text editing. Any text you place in here will be lost. If you need to comment on your tab, please use the "Tab Notes" section located below.