Intro Arpeggios

(/) Slide Up  (\) Slide Down  (h) Hammer On  (p) Pull Off  (b) Bend (r) Release (v) Vibrato


E|------------------------------10----10-13-10-13-17-13-17-21-17-13-17-13----13-------------------
B|---------------------10----10----10-------------------------------------15----15----15----------
G|-------7---7-10-7-10----10-------------------------------------------------------14----14----14-
D|-----7---7--------------------------------------------------------------------------------15----
A|-5-8--------------------------------------------------------------------------------------------
E|------------------------------------------------------------------------------------------------



E|---------------------------------------------------------
B|---------------------------------------------------------
G|---------------------------------------------------------
D|-15----15------------------------------------------------
A|----17----17-12-17-12----12------------------------------
E|----------------------15----15-12-15-12-7-12-7-3-7-3-0-3-



E|---------------------------------------9----9-12-13-10----10------------------------------
B|-------------------------8---8-11-8-11---11------------10----10----10---------------------
G|-------------6---6-9-6-9---9------------------------------------10----10-7-10-7---7-------
D|-----5-8-5-8---8----------------------------------------------------------------7---7-----
A|-4-7----------------------------------------------------------------------------------8-5/
E|------------------------------------------------------------------------------------------
http://www.guitartabcreator.com
Guitar Tab Creator is intended to store guitar tab created through the tool. It currently does not support in-line text editing. Any text you place in here will be lost. If you need to comment on your tab, please use the "Tab Notes" section located below.