Diatonic Shape #1

(/) Slide Up  (\) Slide Down  (h) Hammer On  (p) Pull Off  (b) Bend (r) Release (v) Vibrato


E|------------------------------------------------7--9--10--9--7--------------------------------------
B|--------------------------------------7--9--10------------------10--9--7----------------------------
G|-----------------------------6--7--9--------------------------------------9--7--6-------------------
D|--------------------6--7--9--------------------------------------------------------9--7--6----------
A|-----------5--7--9--------------------------------------------------------------------------9--7--5-
E|--5--7--9-------------------------------------------------------------------------------------------



E|-----------
B|-----------
G|-----------
D|-----------
A|-----------
E|--9--7--5--
http://www.guitartabcreator.com
Guitar Tab Creator is intended to store guitar tab created through the tool. It currently does not support in-line text editing. Any text you place in here will be lost. If you need to comment on your tab, please use the "Tab Notes" section located below.