Beautiful Jason Becker Arpeggio

(/) Slide Up  (\) Slide Down  (h) Hammer On  (p) Pull Off  (b) Bend (r) Release (v) Vibrato


-----------4-8S-11p-8--------------------3-6S-11p-6-----------|
---------4------------9----------------4------------8---------|
-------5----------------8------------3----------------8-------|
-----6--------------------10-------5--------------------8-----|
--6--------------------------11S-6------------------------10S-|
--------------------------------------------------------------|


|-3-| |-3-| |--3-| |--3--| |--3--| |--3--| |---3--| |--3--|
S S S S S S S S S S S S S S S S S S S S S S S S
----------4-8S-13p-8-------------------------13-16S-21p-16-------------|
--------6------------9--------------------14---------------18----------|
------5----------------10--------------13---------------------18-------|
----6---------------------10--------15---------------------------18----|
--8--------------------------11S-16---------------------------------20-|
-----------------------------------------------------------------------|


\1/
Q E S S Q E S S Q E S S E. E Q
-------------------------------------|------------------------------------|
-------------------------------------|--------------------------17---L----|
--17----18b--18-17-15~----18b--18-17-|---------17h--18p-17-16-------------|
-------------------------------------|--18~-------------------------------|
-------------------------------------|------------------------------------|
-------------------------------------|------------------------------------|
Guitar Tab Creator is intended to store guitar tab created through the tool. It currently does not support in-line text editing. Any text you place in here will be lost. If you need to comment on your tab, please use the "Tab Notes" section located below.