metalcore riff 1

(/) Slide Up  (\) Slide Down  (h) Hammer On  (p) Pull Off  (b) Bend (r) Release (v) Vibrato
E|-------------------------------------------------------------------------------
B|-------------------------------------------------------------------------------
G|-------------------------------------------------------------------------------
D|----------------------------------3--------------------------------------3--5--
A|-----8-----7-----5----------------3---------8-----7-----5----------------3--5--
E|--8-----8-----8-------0--0--0--0--3------8-----8-----8-------0--0--0--0--3--5--



E|-------------------------------------------------------------------------------------
B|-------------------------------------------------------------------------------------
G|-------------------------------------------------------------------------------------
D|----------------------------------3--------------------------------------------------
A|-----8-----7-----5----------------3-------8-----7-----5-----8-----10--8--7--8--7--5--
E|--8-----8-----8-------0--0--0--0--3----8-----8-----8-----8-----8---------------------



E|-----------------------------------------------------------------------------------------------
B|-----------------------------------------------------------------------------------------------
G|-----------------------------------------------------------------------------------------------
D|-----------------------------------------------------------------------------------------------
A|--------8--------7--------5--------8-----7-----8----------8--------7--------10--8--7--8--7--3--
E|--0--0-----0--0-----0--0-----0--0-----0-----0-------0--0-----0--0-----0--0---------------------



E|---------------------------------------------------------------------------------
B|---------------------------------------------------------------------------------
G|---------------------------------------------------------------------------------
D|-------------------------------------------------------------3-------------5--1--
A|--------8--------7--------5--------8-----7-----8-------------3-------------5--1--
E|--0--0-----0--0-----0--0-----0--0-----0-----0-------0--0--0--3----0--0--0--5--1--



E|---------------------------------------------------------------------------------------------------
B|---------------------------------------------------------------------------------------------------
G|---------------------------------------------------------------------------------------------------
D|--------15--------14--------12--------15-----14-----15--------15--------14--17--15--14--15--14-----
A|---------------------------------------------------------------------------------------------------
E|--0--0------0--0------0--0------0--0------0------0------0--0------0--0-----------------------------



E|------
B|------
G|------
D|--10--
A|------
E|------



E|----------------------------------------------------------------------------------
B|----------------------------------------------------------------------------------
G|----------------------------------------------------------------------------------
D|--------19--------17--------15--------19-----17-----19--------19--------17--------
A|----------------------------------------------------------------------------------
E|--0--0------0--0------0--0------0--0------0------0------0--0------0--0------0--0--



E|-----------------------------
B|-----------------------------
G|-----------------------------
D|--20--19--17--19--17---------
A|----------------------20-----
E|-----------------------------



E|------------------------------------------------------
B|------------------------------------------------------
G|--9--10--9------9-------------9--10--9------9---------
D|------------10-----10--9----------------10-----10--9--
A|------------------------------------------------------
E|------------------------------------------------------



E|-------------------------------------------
B|-------------------------------------------
G|--9--10--9------9--------------------------
D|------------10-----10--9------9------------
A|--------------------------10-----10--9--7--
E|-------------------------------------------



E|--------------------------------------------------------------------------------------
B|--------------------------------------------------------------------------------------
G|--------------------------------------------------------------------------------------
D|------------------------------8--10--8---------------------------------7--8--7--------
A|--------------12------------------------10--------------8-----------------------8--7--
E|--0--0--0--0------0--0--0--0----------------0--0--0--0-----0--0--0--0-----------------



E|-------------------------------------------------------------------------------------------
B|------------------------------11--13--11----------------------------------8--10--8---------
G|--------------14--------------------------12--------------10------------------------10--9--
D|-------------------------------------------------------------------------------------------
A|-------------------------------------------------------------------------------------------
E|--0--0--0--0------0--0--0--0------------------0--0--0--0------0--0--0--0-------------------
http://www.guitartabcreator.com
Guitar Tab Creator is intended to store guitar tab created through the tool. It currently does not support in-line text editing. Any text you place in here will be lost. If you need to comment on your tab, please use the "Tab Notes" section located below.