lamb of god style interlude riff thing lol

(/) Slide Up  (\) Slide Down  (h) Hammer On  (p) Pull Off  (b) Bend (r) Release (v) Vibrato

1+3

E|-------------------------------------------------------
B|-------------------------------------------------------
G|-------------------------------------------------------
D|----------------------------------------------------3--
A|--6--------5----------------------6--------5--------3--
E|-----0--0-------0--0--0--0--0--0-----0--0-----0--0--3--

2

E|----------------------------------------------------------
B|----------------------------------------------------------
G|----------------------------------------------------------
D|----------------------------------------------------3--1--
A|--6--------5----------------------6--------5--------3--1--
E|-----0--0-------0--0--0--0--0--0-----0--0-----0--0--3--1--

4

E|------------------------------------------------------------------------
B|------------------------------------------------------------------------
G|------------------------------------------------------------------------
D|------------------------------------------------------------------------
A|--6--------5------------------------8--6--5--6--5-----5-----------------
E|-----0--0-------0--0--0--0--0--0-------------------6-----6--5--0--3--5--
http://www.guitartabcreator.com
Guitar Tab Creator is intended to store guitar tab created through the tool. It currently does not support in-line text editing. Any text you place in here will be lost. If you need to comment on your tab, please use the "Tab Notes" section located below.