sunshine

(/) Slide Up  (\) Slide Down  (h) Hammer On  (p) Pull Off  (b) Bend (r) Release (v) Vibrato


E|---------------------------------
B|-----6-----8-----10--------------
G|--4-----7-----9------11--12--13--
D|---------------------------------
A|---------------------------------
E|---------------------------------



E|-----------------------------------------------18--
B|-------------------------------------------18------
G|--6-----9------12------15--------------18----------
D|-----8-----11------14------16--17--18--------------
A|---------------------------------------------------
E|---------------------------------------------------
http://www.guitartabcreator.com
Guitar Tab Creator is intended to store guitar tab created through the tool. It currently does not support in-line text editing. Any text you place in here will be lost. If you need to comment on your tab, please use the "Tab Notes" section located below.