sentiment_intro

(/) Slide Up  (\) Slide Down  (h) Hammer On  (p) Pull Off  (b) Bend (r) Release (v) Vibrato
E|-----------------|-----------------|-----------------|---------0---2---|-
B|---------0-------|---------0-------|---------0-------|-2---4-----0---0-|-
G|---0---0---0---0-|---0---0---0-----|---0---0---0---0-|---0---0---------|-
D|-----2-------2---|-----2-------2p0-|-----2-------2---|-----------------|-
A|-----------------|-----------------|-----------------|-----0---2---4---|-
E|-0---------------|-4---------------|-5---------------|-5---------------|-



E|-----------
B|-----------
G|-----------
D|-----------
A|-----------
E|-----------
http://www.guitartabcreator.com
Guitar Tab Creator is intended to store guitar tab created through the tool. It currently does not support in-line text editing. Any text you place in here will be lost. If you need to comment on your tab, please use the "Tab Notes" section located below.