A soalin

(/) Slide Up  (\) Slide Down  (h) Hammer On  (p) Pull Off  (b) Bend (r) Release (v) Vibrato


E|-----0-----2-----3--2--0-----0-----2-----3--5--7-----0-----2-----3--2--0-----0-----2-----0--
B|--0-----0-----0-----------0-----0-----0-----------0-----0-----0-----------0-----0-----3--0--
G|--------------------------------------------------------------------------------------------
D|--------------------------------------------------------------------------------------------
A|--------------------------------------------------------------------------------------------
E|--------------------------------------------------------------------------------------------



E|-----0-----2-----3--2--0-----0-----2-----3--5--7-----0-----2-----3--2--0-----0-----2--------------
B|--0-----0-----0-----------0-----0-----0-----------0-----0-----0-----------0-----0-----3-----------
G|--------------------------------------------------------------------------------------------------
D|-----2-----0-----------------------------------------2-----0--------------------------------------
A|-----------------3--2--3-----2-----0-----------------------------3--2--3-----2-----0--------------
E|-----------------------------------------3--0--0-----------------------------------------3--2--0--
http://www.guitartabcreator.com
Guitar Tab Creator is intended to store guitar tab created through the tool. It currently does not support in-line text editing. Any text you place in here will be lost. If you need to comment on your tab, please use the "Tab Notes" section located below.